ISO-10303-21;
HEADER;
FILE_DESCRIPTION (( 'STEP AP203' ),
    '1' );
FILE_NAME ('Q-DWWP-R12-25.4-1064-SH-M.STEP',
    '2020-12-22T08:53:06',
    ( '' ),
    ( '' ),
    'SwSTEP 2.0',
    'SolidWorks 2020',
    '' );
FILE_SCHEMA (( 'CONFIG_CONTROL_DESIGN' ));
ENDSEC;

DATA;
#1 = DATE_TIME_ROLE ( 'creation_date' ) ;
#2 = DIRECTION ( 'NONE',  ( -1.000000000000000000, -0.000000000000000000, -0.000000000000000000 ) ) ;
#3 = AXIS2_PLACEMENT_3D ( 'NONE', #221, #122, #40 ) ;
#4 = EDGE_CURVE ( 'NONE', #296, #199, #126, .T. ) ;
#5 = EDGE_CURVE ( 'NONE', #298, #246, #283, .T. ) ;
#6 = COORDINATED_UNIVERSAL_TIME_OFFSET ( 8, 0, .AHEAD. ) ;
#7 = VERTEX_POINT ( 'NONE', #256 ) ;
#8 = LOCAL_TIME ( 16, 53, 6.000000000000000000, #212 ) ;
#9 = CC_DESIGN_PERSON_AND_ORGANIZATION_ASSIGNMENT ( #190, #259, ( #114 ) ) ;
#10 =( NAMED_UNIT ( * ) SI_UNIT ( $, .STERADIAN. ) SOLID_ANGLE_UNIT ( ) );
#11 = ORIENTED_EDGE ( 'NONE', *, *, #218, .T. ) ;
#12 = CARTESIAN_POINT ( 'NONE',  ( 0.000000000000000000, 0.000000000000000000, 0.000000000000000000 ) ) ;
#13 = ORIENTED_EDGE ( 'NONE', *, *, #239, .F. ) ;
#14 = LINE ( 'NONE', #93, #193 ) ;
#15 = FACE_OUTER_BOUND ( 'NONE', #153, .T. ) ;
#16 = ORIENTED_EDGE ( 'NONE', *, *, #195, .F. ) ;
#17 = AXIS2_PLACEMENT_3D ( 'NONE', #313, #30, #292 ) ;
#18 = DIRECTION ( 'NONE',  ( 0.000000000000000000, 0.000000000000000000, 1.000000000000000000 ) ) ;
#19 = ORIENTED_EDGE ( 'NONE', *, *, #310, .T. ) ;
#20 = CIRCLE ( 'NONE', #220, 3.000000000000000000 ) ;
#21 = CALENDAR_DATE ( 2020, 22, 12 ) ;
#22 = PLANE ( 'NONE',  #196 ) ;
#23 = COORDINATED_UNIVERSAL_TIME_OFFSET ( 8, 0, .AHEAD. ) ;
#24 = DIRECTION ( 'NONE',  ( 0.000000000000000000, 0.000000000000000000, 1.000000000000000000 ) ) ;
#25 = ADVANCED_FACE ( 'NONE', ( #307, #209 ), #22, .F. ) ;
#26 = APPROVAL_ROLE ( '' ) ;
#27 = VECTOR ( 'NONE', #183, 1000.000000000000000 ) ;
#28 = AXIS2_PLACEMENT_3D ( 'NONE', #334, #156, #82 ) ;
#29 = DATE_AND_TIME ( #21, #142 ) ;
#30 = DIRECTION ( 'NONE',  ( -1.000000000000000000, -0.000000000000000000, -0.000000000000000000 ) ) ;
#31 = APPLICATION_CONTEXT ( 'configuration controlled 3d designs of mechanical parts and assemblies' ) ;
#32 = ORIENTED_EDGE ( 'NONE', *, *, #181, .F. ) ;
#33 = DESIGN_CONTEXT ( 'detailed design', #262, 'design' ) ;
#34 = CC_DESIGN_DATE_AND_TIME_ASSIGNMENT ( #29, #214, ( #84 ) ) ;
#35 = CARTESIAN_POINT ( 'NONE',  ( -0.5000000000000002220, 0.000000000000000000, 0.000000000000000000 ) ) ;
#36 = ORIENTED_EDGE ( 'NONE', *, *, #310, .F. ) ;
#37 = CARTESIAN_POINT ( 'NONE',  ( 0.5000000000000004441, 3.673940397442059868E-16, -3.000000000000000000 ) ) ;
#38 = ORIENTED_EDGE ( 'NONE', *, *, #218, .F. ) ;
#39 = UNCERTAINTY_MEASURE_WITH_UNIT (LENGTH_MEASURE( 1.000000000000000082E-05 ), #90, 'distance_accuracy_value', 'NONE');
#40 = DIRECTION ( 'NONE',  ( 0.000000000000000000, 0.000000000000000000, 1.000000000000000000 ) ) ;
#41 = EDGE_CURVE ( 'NONE', #87, #116, #47, .T. ) ;
#42 = ORIENTED_EDGE ( 'NONE', *, *, #4, .F. ) ;
#43 = FACE_OUTER_BOUND ( 'NONE', #198, .T. ) ;
#44 = EDGE_LOOP ( 'NONE', ( #148, #42 ) ) ;
#45 = AXIS2_PLACEMENT_3D ( 'NONE', #312, #191, #290 ) ;
#46 = CARTESIAN_POINT ( 'NONE',  ( -1.500000000000000000, 6.123233995736766282E-16, -5.000000000000000000 ) ) ;
#47 = CIRCLE ( 'NONE', #180, 5.000000000000000000 ) ;
#48 = APPROVAL_ROLE ( '' ) ;
#49 = DIRECTION ( 'NONE',  ( 0.000000000000000000, 0.000000000000000000, 1.000000000000000000 ) ) ;
#50 = COORDINATED_UNIVERSAL_TIME_OFFSET ( 8, 0, .AHEAD. ) ;
#51 = DIRECTION ( 'NONE',  ( -1.000000000000000000, -0.000000000000000000, -0.000000000000000000 ) ) ;
#52 = SHAPE_DEFINITION_REPRESENTATION ( #103, #185 ) ;
#53 = CARTESIAN_POINT ( 'NONE',  ( -1.614212418857619014, 3.673940397442059868E-16, -3.000000000000000000 ) ) ;
#54 = COORDINATED_UNIVERSAL_TIME_OFFSET ( 8, 0, .AHEAD. ) ;
#55 = AXIS2_PLACEMENT_3D ( 'NONE', #213, #77, #211 ) ;
#56 = CARTESIAN_POINT ( 'NONE',  ( -1.500000000000000000, 0.000000000000000000, 0.000000000000000000 ) ) ;
#57 = ADVANCED_FACE ( 'NONE', ( #111, #215 ), #261, .F. ) ;
#58 = EDGE_CURVE ( 'NONE', #7, #145, #78, .T. ) ;
#59 = CC_DESIGN_DATE_AND_TIME_ASSIGNMENT ( #80, #1, ( #331 ) ) ;
#60 = CIRCLE ( 'NONE', #324, 3.000000000000000000 ) ;
#61 = DIRECTION ( 'NONE',  ( 1.000000000000000000, 0.000000000000000000, 0.000000000000000000 ) ) ;
#62 = PLANE ( 'NONE',  #254 ) ;
#63 = ORIENTED_EDGE ( 'NONE', *, *, #176, .F. ) ;
#64 = MECHANICAL_CONTEXT ( 'NONE', #31, 'mechanical' ) ;
#65 = EDGE_LOOP ( 'NONE', ( #274, #303, #273, #32 ) ) ;
#66 = VECTOR ( 'NONE', #304, 1000.000000000000000 ) ;
#67 = APPROVAL_PERSON_ORGANIZATION ( #194, #182, #26 ) ;
#68 = PERSON_AND_ORGANIZATION_ROLE ( 'design_owner' ) ;
#69 = ORIENTED_EDGE ( 'NONE', *, *, #110, .F. ) ;
#70 = CARTESIAN_POINT ( 'NONE',  ( 1.500000000000000444, 3.673940397442059868E-16, -3.000000000000000000 ) ) ;
#71 = DATE_AND_TIME ( #269, #280 ) ;
#72 = ORIENTED_EDGE ( 'NONE', *, *, #328, .T. ) ;
#73 = CARTESIAN_POINT ( 'NONE',  ( 0.5000000000000002220, 3.000000000000000000, 0.000000000000000000 ) ) ;
#74 = CIRCLE ( 'NONE', #308, 3.000000000000000000 ) ;
#75 = PRODUCT ( 'Q-DWWP-R12-25.4-1064-SH-M', 'Q-DWWP-R12-25.4-1064-SH-M', '', ( #64 ) ) ;
#76 = ADVANCED_FACE ( 'NONE', ( #317 ), #335, .F. ) ;
#77 = DIRECTION ( 'NONE',  ( -1.000000000000000000, -0.000000000000000000, -0.000000000000000000 ) ) ;
#78 = CIRCLE ( 'NONE', #166, 5.000000000000000000 ) ;
#79 = DIRECTION ( 'NONE',  ( 1.000000000000000000, 0.000000000000000000, 0.000000000000000000 ) ) ;
#80 = DATE_AND_TIME ( #289, #319 ) ;
#81 = CARTESIAN_POINT ( 'NONE',  ( -1.500000000000000000, 3.000000000000000000, 0.000000000000000000 ) ) ;
#82 = DIRECTION ( 'NONE',  ( 0.000000000000000000, 0.000000000000000000, 1.000000000000000000 ) ) ;
#83 = PERSON_AND_ORGANIZATION_ROLE ( 'design_supplier' ) ;
#84 = SECURITY_CLASSIFICATION ( '', '', #159 ) ;
#85 = ADVANCED_FACE ( 'NONE', ( #232 ), #129, .F. ) ;
#86 = AXIS2_PLACEMENT_3D ( 'NONE', #12, #171, #197 ) ;
#87 = VERTEX_POINT ( 'NONE', #104 ) ;
#88 = ORIENTED_EDGE ( 'NONE', *, *, #5, .F. ) ;
#89 = VERTEX_POINT ( 'NONE', #106 ) ;
#90 =( LENGTH_UNIT ( ) NAMED_UNIT ( * ) SI_UNIT ( .MILLI., .METRE. ) );
#91 = EDGE_LOOP ( 'NONE', ( #120, #227 ) ) ;
#92 = AXIS2_PLACEMENT_3D ( 'NONE', #81, #79, #258 ) ;
#93 = CARTESIAN_POINT ( 'NONE',  ( -1.614212418857619014, 0.000000000000000000, 5.000000000000000000 ) ) ;
#94 = PRODUCT_RELATED_PRODUCT_CATEGORY ( 'detail', '', ( #75 ) ) ;
#95 = ORIENTED_EDGE ( 'NONE', *, *, #239, .T. ) ;
#96 = CARTESIAN_POINT ( 'NONE',  ( 1.500000000000000000, 0.000000000000000000, 5.000000000000000000 ) ) ;
#97 = CIRCLE ( 'NONE', #291, 3.000000000000000000 ) ;
#98 = ORIENTED_EDGE ( 'NONE', *, *, #176, .T. ) ;
#99 = EDGE_CURVE ( 'NONE', #145, #7, #265, .T. ) ;
#100 = CARTESIAN_POINT ( 'NONE',  ( 1.500000000000000000, 0.000000000000000000, 0.000000000000000000 ) ) ;
#101 =( GEOMETRIC_REPRESENTATION_CONTEXT ( 3 ) GLOBAL_UNCERTAINTY_ASSIGNED_CONTEXT ( ( #39 ) ) GLOBAL_UNIT_ASSIGNED_CONTEXT ( ( #90, #225, #10 ) ) REPRESENTATION_CONTEXT ( 'NONE', 'WORKASPACE' ) );
#102 = DATE_AND_TIME ( #157, #8 ) ;
#103 = PRODUCT_DEFINITION_SHAPE ( 'NONE', 'NONE',  #331 ) ;
#104 = CARTESIAN_POINT ( 'NONE',  ( 1.500000000000000000, 6.123233995736766282E-16, -5.000000000000000000 ) ) ;
#105 = EDGE_CURVE ( 'NONE', #87, #145, #236, .T. ) ;
#106 = CARTESIAN_POINT ( 'NONE',  ( 1.500000000000000444, 0.000000000000000000, 3.000000000000000000 ) ) ;
#107 = CALENDAR_DATE ( 2020, 22, 12 ) ;
#108 = DIRECTION ( 'NONE',  ( -1.000000000000000000, -0.000000000000000000, -0.000000000000000000 ) ) ;
#109 = MANIFOLD_SOLID_BREP ( 'Ðý×', #155 ) ;
#110 = EDGE_CURVE ( 'NONE', #170, #296, #189, .T. ) ;
#111 = FACE_BOUND ( 'NONE', #241, .T. ) ;
#112 = ADVANCED_FACE ( 'NONE', ( #192 ), #163, .F. ) ;
#113 = DIRECTION ( 'NONE',  ( 0.000000000000000000, 0.000000000000000000, -1.000000000000000000 ) ) ;
#114 = PRODUCT_DEFINITION_FORMATION_WITH_SPECIFIED_SOURCE ( 'ANY', '', #75, .NOT_KNOWN. ) ;
#115 = CARTESIAN_POINT ( 'NONE',  ( 1.500000000000000000, 0.000000000000000000, 0.000000000000000000 ) ) ;
#116 = VERTEX_POINT ( 'NONE', #96 ) ;
#117 = CARTESIAN_POINT ( 'NONE',  ( -0.5000000000000002220, 3.673940397442059868E-16, -3.000000000000000000 ) ) ;
#118 = ADVANCED_FACE ( 'NONE', ( #178 ), #152, .F. ) ;
#119 = ORIENTED_EDGE ( 'NONE', *, *, #328, .F. ) ;
#120 = ORIENTED_EDGE ( 'NONE', *, *, #272, .F. ) ;
#121 = DIRECTION ( 'NONE',  ( -1.000000000000000000, -0.000000000000000000, -0.000000000000000000 ) ) ;
#122 = DIRECTION ( 'NONE',  ( -1.000000000000000000, -0.000000000000000000, -0.000000000000000000 ) ) ;
#123 = ORIENTED_EDGE ( 'NONE', *, *, #5, .T. ) ;
#124 = AXIS2_PLACEMENT_3D ( 'NONE', #136, #108, #315 ) ;
#125 = LINE ( 'NONE', #247, #242 ) ;
#126 = CIRCLE ( 'NONE', #17, 3.000000000000000000 ) ;
#127 = ORIENTED_EDGE ( 'NONE', *, *, #110, .T. ) ;
#128 = PERSON_AND_ORGANIZATION ( #238, #229 ) ;
#129 = CYLINDRICAL_SURFACE ( 'NONE', #28, 3.000000000000000000 ) ;
#130 = CC_DESIGN_APPROVAL ( #285, ( #331 ) ) ;
#131 = EDGE_CURVE ( 'NONE', #168, #323, #125, .T. ) ;
#132 = CARTESIAN_POINT ( 'NONE',  ( 0.5000000000000004441, 0.000000000000000000, 3.000000000000000000 ) ) ;
#133 = DIRECTION ( 'NONE',  ( -1.000000000000000000, -0.000000000000000000, -0.000000000000000000 ) ) ;
#134 = PERSON_AND_ORGANIZATION ( #238, #229 ) ;
#135 = APPROVAL ( #187, 'UNSPECIFIED' ) ;
#136 = CARTESIAN_POINT ( 'NONE',  ( 1.500000000000000444, 0.000000000000000000, 0.000000000000000000 ) ) ;
#137 = CARTESIAN_POINT ( 'NONE',  ( 1.500000000000000222, 5.000000000000000000, 0.000000000000000000 ) ) ;
#138 = CIRCLE ( 'NONE', #260, 5.000000000000000000 ) ;
#139 = ADVANCED_FACE ( 'NONE', ( #228 ), #279, .T. ) ;
#140 = APPLICATION_PROTOCOL_DEFINITION ( 'international standard', 'config_control_design', 1994, #31 ) ;
#141 = ORIENTED_EDGE ( 'NONE', *, *, #99, .F. ) ;
#142 = LOCAL_TIME ( 16, 53, 6.000000000000000000, #23 ) ;
#143 = PERSON_AND_ORGANIZATION ( #238, #229 ) ;
#144 = CC_DESIGN_SECURITY_CLASSIFICATION ( #84, ( #114 ) ) ;
#145 = VERTEX_POINT ( 'NONE', #46 ) ;
#146 = CARTESIAN_POINT ( 'NONE',  ( 1.500000000000000444, 0.000000000000000000, 0.000000000000000000 ) ) ;
#147 = CC_DESIGN_PERSON_AND_ORGANIZATION_ASSIGNMENT ( #200, #68, ( #75 ) ) ;
#148 = ORIENTED_EDGE ( 'NONE', *, *, #245, .F. ) ;
#149 = DIRECTION ( 'NONE',  ( 0.000000000000000000, 0.000000000000000000, 1.000000000000000000 ) ) ;
#150 = APPLICATION_PROTOCOL_DEFINITION ( 'international standard', 'config_control_design', 1994, #262 ) ;
#151 = ORIENTED_EDGE ( 'NONE', *, *, #99, .T. ) ;
#152 = PLANE ( 'NONE',  #179 ) ;
#153 = EDGE_LOOP ( 'NONE', ( #119, #13 ) ) ;
#154 = LINE ( 'NONE', #325, #66 ) ;
#155 = CLOSED_SHELL ( 'NONE', ( #139, #255, #85, #118, #76, #112, #57, #188, #25, #267 ) ) ;
#156 = DIRECTION ( 'NONE',  ( -1.000000000000000000, -0.000000000000000000, -0.000000000000000000 ) ) ;
#157 = CALENDAR_DATE ( 2020, 22, 12 ) ;
#158 = DIRECTION ( 'NONE',  ( -1.000000000000000000, 0.000000000000000000, -0.000000000000000000 ) ) ;
#159 = SECURITY_CLASSIFICATION_LEVEL ( 'unclassified' ) ;
#160 = CARTESIAN_POINT ( 'NONE',  ( -1.614212418857619014, 0.000000000000000000, 0.000000000000000000 ) ) ;
#161 = APPROVAL_PERSON_ORGANIZATION ( #134, #135, #48 ) ;
#162 = CARTESIAN_POINT ( 'NONE',  ( -1.500000000000000000, 0.000000000000000000, 0.000000000000000000 ) ) ;
#163 = CYLINDRICAL_SURFACE ( 'NONE', #316, 3.000000000000000000 ) ;
#164 = DIRECTION ( 'NONE',  ( 0.000000000000000000, 0.000000000000000000, 1.000000000000000000 ) ) ;
#165 = DIRECTION ( 'NONE',  ( -1.000000000000000000, -0.000000000000000000, -0.000000000000000000 ) ) ;
#166 = AXIS2_PLACEMENT_3D ( 'NONE', #56, #288, #49 ) ;
#167 = DIRECTION ( 'NONE',  ( 0.000000000000000000, 0.000000000000000000, 1.000000000000000000 ) ) ;
#168 = VERTEX_POINT ( 'NONE', #300 ) ;
#169 = CC_DESIGN_PERSON_AND_ORGANIZATION_ASSIGNMENT ( #277, #243, ( #331 ) ) ;
#170 = VERTEX_POINT ( 'NONE', #70 ) ;
#171 = DIRECTION ( 'NONE',  ( 0.000000000000000000, 0.000000000000000000, 1.000000000000000000 ) ) ;
#172 = ORIENTED_EDGE ( 'NONE', *, *, #305, .F. ) ;
#173 = DIRECTION ( 'NONE',  ( -1.000000000000000000, -0.000000000000000000, -0.000000000000000000 ) ) ;
#174 = CYLINDRICAL_SURFACE ( 'NONE', #216, 3.000000000000000000 ) ;
#175 = APPROVAL_DATE_TIME ( #71, #285 ) ;
#176 = EDGE_CURVE ( 'NONE', #89, #199, #154, .T. ) ;
#177 = ORIENTED_EDGE ( 'NONE', *, *, #181, .T. ) ;
#178 = FACE_OUTER_BOUND ( 'NONE', #44, .T. ) ;
#179 = AXIS2_PLACEMENT_3D ( 'NONE', #73, #275, #250 ) ;
#180 = AXIS2_PLACEMENT_3D ( 'NONE', #100, #309, #186 ) ;
#181 = EDGE_CURVE ( 'NONE', #116, #7, #14, .T. ) ;
#182 = APPROVAL ( #257, 'UNSPECIFIED' ) ;
#183 = DIRECTION ( 'NONE',  ( -1.000000000000000000, -0.000000000000000000, -0.000000000000000000 ) ) ;
#184 = AXIS2_PLACEMENT_3D ( 'NONE', #35, #61, #297 ) ;
#185 = ADVANCED_BREP_SHAPE_REPRESENTATION ( 'Q-DWWP-R12-25.4-1064-SH-M', ( #109, #86 ), #101 ) ;
#186 = DIRECTION ( 'NONE',  ( 0.000000000000000000, 0.000000000000000000, 1.000000000000000000 ) ) ;
#187 = APPROVAL_STATUS ( 'not_yet_approved' ) ;
#188 = ADVANCED_FACE ( 'NONE', ( #43 ), #234, .T. ) ;
#189 = LINE ( 'NONE', #53, #282 ) ;
#190 = PERSON_AND_ORGANIZATION ( #238, #229 ) ;
#191 = DIRECTION ( 'NONE',  ( -1.000000000000000000, -0.000000000000000000, -0.000000000000000000 ) ) ;
#192 = FACE_OUTER_BOUND ( 'NONE', #222, .T. ) ;
#193 = VECTOR ( 'NONE', #173, 1000.000000000000000 ) ;
#194 = PERSON_AND_ORGANIZATION ( #238, #229 ) ;
#195 = EDGE_CURVE ( 'NONE', #323, #246, #97, .T. ) ;
#196 = AXIS2_PLACEMENT_3D ( 'NONE', #137, #158, #231 ) ;
#197 = DIRECTION ( 'NONE',  ( 1.000000000000000000, 0.000000000000000000, 0.000000000000000000 ) ) ;
#198 = EDGE_LOOP ( 'NONE', ( #327, #226, #177, #141 ) ) ;
#199 = VERTEX_POINT ( 'NONE', #132 ) ;
#200 = PERSON_AND_ORGANIZATION ( #238, #229 ) ;
#201 = EDGE_LOOP ( 'NONE', ( #69, #38, #98, #205 ) ) ;
#202 = CIRCLE ( 'NONE', #184, 3.000000000000000000 ) ;
#203 = ORIENTED_EDGE ( 'NONE', *, *, #4, .T. ) ;
#204 = DIRECTION ( 'NONE',  ( -1.000000000000000000, -0.000000000000000000, -0.000000000000000000 ) ) ;
#205 = ORIENTED_EDGE ( 'NONE', *, *, #245, .T. ) ;
#206 = DIRECTION ( 'NONE',  ( 0.000000000000000000, 0.000000000000000000, 1.000000000000000000 ) ) ;
#207 = CC_DESIGN_APPROVAL ( #135, ( #114 ) ) ;
#208 = CC_DESIGN_PERSON_AND_ORGANIZATION_ASSIGNMENT ( #128, #83, ( #114 ) ) ;
#209 = FACE_BOUND ( 'NONE', #321, .T. ) ;
#210 = AXIS2_PLACEMENT_3D ( 'NONE', #160, #286, #24 ) ;
#211 = DIRECTION ( 'NONE',  ( 0.000000000000000000, 0.000000000000000000, 1.000000000000000000 ) ) ;
#212 = COORDINATED_UNIVERSAL_TIME_OFFSET ( 8, 0, .AHEAD. ) ;
#213 = CARTESIAN_POINT ( 'NONE',  ( -1.500000000000000000, 0.000000000000000000, 0.000000000000000000 ) ) ;
#214 = DATE_TIME_ROLE ( 'classification_date' ) ;
#215 = FACE_OUTER_BOUND ( 'NONE', #299, .T. ) ;
#216 = AXIS2_PLACEMENT_3D ( 'NONE', #276, #251, #18 ) ;
#217 = DIRECTION ( 'NONE',  ( 0.000000000000000000, 0.000000000000000000, 1.000000000000000000 ) ) ;
#218 = EDGE_CURVE ( 'NONE', #89, #170, #271, .T. ) ;
#219 = CARTESIAN_POINT ( 'NONE',  ( 0.5000000000000004441, 0.000000000000000000, 0.000000000000000000 ) ) ;
#220 = AXIS2_PLACEMENT_3D ( 'NONE', #294, #266, #113 ) ;
#221 = CARTESIAN_POINT ( 'NONE',  ( -1.500000000000000000, 0.000000000000000000, 0.000000000000000000 ) ) ;
#222 = EDGE_LOOP ( 'NONE', ( #88, #95, #270, #224 ) ) ;
#223 = DIRECTION ( 'NONE',  ( 0.000000000000000000, 0.000000000000000000, 1.000000000000000000 ) ) ;
#224 = ORIENTED_EDGE ( 'NONE', *, *, #195, .T. ) ;
#225 =( NAMED_UNIT ( * ) PLANE_ANGLE_UNIT ( ) SI_UNIT ( $, .RADIAN. ) );
#226 = ORIENTED_EDGE ( 'NONE', *, *, #41, .T. ) ;
#227 = ORIENTED_EDGE ( 'NONE', *, *, #41, .F. ) ;
#228 = FACE_OUTER_BOUND ( 'NONE', #65, .T. ) ;
#229 = ORGANIZATION ( 'UNSPECIFIED', 'UNSPECIFIED', '' ) ;
#230 = LOCAL_TIME ( 16, 53, 6.000000000000000000, #54 ) ;
#231 = DIRECTION ( 'NONE',  ( -0.000000000000000000, 0.000000000000000000, 1.000000000000000000 ) ) ;
#232 = FACE_OUTER_BOUND ( 'NONE', #244, .T. ) ;
#233 = AXIS2_PLACEMENT_3D ( 'NONE', #329, #121, #206 ) ;
#234 = CYLINDRICAL_SURFACE ( 'NONE', #45, 5.000000000000000000 ) ;
#235 = CARTESIAN_POINT ( 'NONE',  ( -1.614212418857619014, 3.673940397442059868E-16, -3.000000000000000000 ) ) ;
#236 = LINE ( 'NONE', #311, #27 ) ;
#237 = VECTOR ( 'NONE', #51, 1000.000000000000000 ) ;
#238 = PERSON ( 'UNSPECIFIED', 'UNSPECIFIED', 'UNSPECIFIED', ('UNSPECIFIED'), ('UNSPECIFIED'), ('UNSPECIFIED') ) ;
#239 = EDGE_CURVE ( 'NONE', #298, #168, #20, .T. ) ;
#240 = DIRECTION ( 'NONE',  ( 0.000000000000000000, 0.000000000000000000, -1.000000000000000000 ) ) ;
#241 = EDGE_LOOP ( 'NONE', ( #16, #36 ) ) ;
#242 = VECTOR ( 'NONE', #204, 1000.000000000000000 ) ;
#243 = PERSON_AND_ORGANIZATION_ROLE ( 'creator' ) ;
#244 = EDGE_LOOP ( 'NONE', ( #172, #127, #203, #63 ) ) ;
#245 = EDGE_CURVE ( 'NONE', #199, #296, #74, .T. ) ;
#246 = VERTEX_POINT ( 'NONE', #318 ) ;
#247 = CARTESIAN_POINT ( 'NONE',  ( -1.614212418857619014, 0.000000000000000000, 3.000000000000000000 ) ) ;
#248 = APPROVAL_STATUS ( 'not_yet_approved' ) ;
#249 = ORIENTED_EDGE ( 'NONE', *, *, #305, .T. ) ;
#250 = DIRECTION ( 'NONE',  ( -0.000000000000000000, 0.000000000000000000, 1.000000000000000000 ) ) ;
#251 = DIRECTION ( 'NONE',  ( -1.000000000000000000, -0.000000000000000000, -0.000000000000000000 ) ) ;
#252 = CIRCLE ( 'NONE', #3, 3.000000000000000000 ) ;
#253 = ORIENTED_EDGE ( 'NONE', *, *, #131, .F. ) ;
#254 = AXIS2_PLACEMENT_3D ( 'NONE', #326, #268, #240 ) ;
#255 = ADVANCED_FACE ( 'NONE', ( #301 ), #174, .F. ) ;
#256 = CARTESIAN_POINT ( 'NONE',  ( -1.500000000000000000, 0.000000000000000000, 5.000000000000000000 ) ) ;
#257 = APPROVAL_STATUS ( 'not_yet_approved' ) ;
#258 = DIRECTION ( 'NONE',  ( 0.000000000000000000, 0.000000000000000000, -1.000000000000000000 ) ) ;
#259 = PERSON_AND_ORGANIZATION_ROLE ( 'creator' ) ;
#260 = AXIS2_PLACEMENT_3D ( 'NONE', #115, #320, #167 ) ;
#261 = PLANE ( 'NONE',  #92 ) ;
#262 = APPLICATION_CONTEXT ( 'configuration controlled 3d designs of mechanical parts and assemblies' ) ;
#263 = DIRECTION ( 'NONE',  ( -1.000000000000000000, -0.000000000000000000, -0.000000000000000000 ) ) ;
#264 = CARTESIAN_POINT ( 'NONE',  ( -1.614212418857619014, 0.000000000000000000, 0.000000000000000000 ) ) ;
#265 = CIRCLE ( 'NONE', #55, 5.000000000000000000 ) ;
#266 = DIRECTION ( 'NONE',  ( 1.000000000000000000, 0.000000000000000000, 0.000000000000000000 ) ) ;
#267 = ADVANCED_FACE ( 'NONE', ( #15 ), #62, .F. ) ;
#268 = DIRECTION ( 'NONE',  ( 1.000000000000000000, 0.000000000000000000, 0.000000000000000000 ) ) ;
#269 = CALENDAR_DATE ( 2020, 22, 12 ) ;
#270 = ORIENTED_EDGE ( 'NONE', *, *, #131, .T. ) ;
#271 = CIRCLE ( 'NONE', #124, 3.000000000000000000 ) ;
#272 = EDGE_CURVE ( 'NONE', #116, #87, #138, .T. ) ;
#273 = ORIENTED_EDGE ( 'NONE', *, *, #58, .F. ) ;
#274 = ORIENTED_EDGE ( 'NONE', *, *, #272, .T. ) ;
#275 = DIRECTION ( 'NONE',  ( -1.000000000000000000, 0.000000000000000000, -0.000000000000000000 ) ) ;
#276 = CARTESIAN_POINT ( 'NONE',  ( -1.614212418857619014, 0.000000000000000000, 0.000000000000000000 ) ) ;
#277 = PERSON_AND_ORGANIZATION ( #238, #229 ) ;
#278 = EDGE_LOOP ( 'NONE', ( #72, #123, #19, #253 ) ) ;
#279 = CYLINDRICAL_SURFACE ( 'NONE', #233, 5.000000000000000000 ) ;
#280 = LOCAL_TIME ( 16, 53, 6.000000000000000000, #6 ) ;
#281 = PERSON_AND_ORGANIZATION_ROLE ( 'classification_officer' ) ;
#282 = VECTOR ( 'NONE', #133, 1000.000000000000000 ) ;
#283 = LINE ( 'NONE', #235, #237 ) ;
#284 = PERSON_AND_ORGANIZATION ( #238, #229 ) ;
#285 = APPROVAL ( #248, 'UNSPECIFIED' ) ;
#286 = DIRECTION ( 'NONE',  ( -1.000000000000000000, -0.000000000000000000, -0.000000000000000000 ) ) ;
#287 = APPROVAL_DATE_TIME ( #293, #182 ) ;
#288 = DIRECTION ( 'NONE',  ( -1.000000000000000000, -0.000000000000000000, -0.000000000000000000 ) ) ;
#289 = CALENDAR_DATE ( 2020, 22, 12 ) ;
#290 = DIRECTION ( 'NONE',  ( 0.000000000000000000, 0.000000000000000000, 1.000000000000000000 ) ) ;
#291 = AXIS2_PLACEMENT_3D ( 'NONE', #162, #263, #164 ) ;
#292 = DIRECTION ( 'NONE',  ( 0.000000000000000000, 0.000000000000000000, 1.000000000000000000 ) ) ;
#293 = DATE_AND_TIME ( #107, #230 ) ;
#294 = CARTESIAN_POINT ( 'NONE',  ( -0.5000000000000002220, 0.000000000000000000, 0.000000000000000000 ) ) ;
#295 = DIRECTION ( 'NONE',  ( -1.000000000000000000, -0.000000000000000000, -0.000000000000000000 ) ) ;
#296 = VERTEX_POINT ( 'NONE', #37 ) ;
#297 = DIRECTION ( 'NONE',  ( 0.000000000000000000, 0.000000000000000000, -1.000000000000000000 ) ) ;
#298 = VERTEX_POINT ( 'NONE', #117 ) ;
#299 = EDGE_LOOP ( 'NONE', ( #332, #151 ) ) ;
#300 = CARTESIAN_POINT ( 'NONE',  ( -0.5000000000000002220, 0.000000000000000000, 3.000000000000000000 ) ) ;
#301 = FACE_OUTER_BOUND ( 'NONE', #278, .T. ) ;
#302 = APPROVAL_ROLE ( '' ) ;
#303 = ORIENTED_EDGE ( 'NONE', *, *, #105, .T. ) ;
#304 = DIRECTION ( 'NONE',  ( -1.000000000000000000, -0.000000000000000000, -0.000000000000000000 ) ) ;
#305 = EDGE_CURVE ( 'NONE', #170, #89, #60, .T. ) ;
#306 = CC_DESIGN_APPROVAL ( #182, ( #84 ) ) ;
#307 = FACE_OUTER_BOUND ( 'NONE', #91, .T. ) ;
#308 = AXIS2_PLACEMENT_3D ( 'NONE', #219, #165, #217 ) ;
#309 = DIRECTION ( 'NONE',  ( -1.000000000000000000, -0.000000000000000000, -0.000000000000000000 ) ) ;
#310 = EDGE_CURVE ( 'NONE', #246, #323, #252, .T. ) ;
#311 = CARTESIAN_POINT ( 'NONE',  ( -1.614212418857619014, 6.123233995736766282E-16, -5.000000000000000000 ) ) ;
#312 = CARTESIAN_POINT ( 'NONE',  ( -1.614212418857619014, 0.000000000000000000, 0.000000000000000000 ) ) ;
#313 = CARTESIAN_POINT ( 'NONE',  ( 0.5000000000000004441, 0.000000000000000000, 0.000000000000000000 ) ) ;
#314 = APPROVAL_DATE_TIME ( #102, #135 ) ;
#315 = DIRECTION ( 'NONE',  ( 0.000000000000000000, 0.000000000000000000, 1.000000000000000000 ) ) ;
#316 = AXIS2_PLACEMENT_3D ( 'NONE', #264, #2, #149 ) ;
#317 = FACE_OUTER_BOUND ( 'NONE', #201, .T. ) ;
#318 = CARTESIAN_POINT ( 'NONE',  ( -1.500000000000000000, 3.673940397442059868E-16, -3.000000000000000000 ) ) ;
#319 = LOCAL_TIME ( 16, 53, 6.000000000000000000, #50 ) ;
#320 = DIRECTION ( 'NONE',  ( -1.000000000000000000, -0.000000000000000000, -0.000000000000000000 ) ) ;
#321 = EDGE_LOOP ( 'NONE', ( #11, #249 ) ) ;
#322 = CARTESIAN_POINT ( 'NONE',  ( -1.500000000000000000, 0.000000000000000000, 3.000000000000000000 ) ) ;
#323 = VERTEX_POINT ( 'NONE', #322 ) ;
#324 = AXIS2_PLACEMENT_3D ( 'NONE', #146, #295, #223 ) ;
#325 = CARTESIAN_POINT ( 'NONE',  ( -1.614212418857619014, 0.000000000000000000, 3.000000000000000000 ) ) ;
#326 = CARTESIAN_POINT ( 'NONE',  ( -0.5000000000000002220, 3.000000000000000000, 0.000000000000000000 ) ) ;
#327 = ORIENTED_EDGE ( 'NONE', *, *, #105, .F. ) ;
#328 = EDGE_CURVE ( 'NONE', #168, #298, #202, .T. ) ;
#329 = CARTESIAN_POINT ( 'NONE',  ( -1.614212418857619014, 0.000000000000000000, 0.000000000000000000 ) ) ;
#330 = CC_DESIGN_PERSON_AND_ORGANIZATION_ASSIGNMENT ( #284, #281, ( #84 ) ) ;
#331 = PRODUCT_DEFINITION ( 'UNKNOWN', '', #114, #33 ) ;
#332 = ORIENTED_EDGE ( 'NONE', *, *, #58, .T. ) ;
#333 = APPROVAL_PERSON_ORGANIZATION ( #143, #285, #302 ) ;
#334 = CARTESIAN_POINT ( 'NONE',  ( -1.614212418857619014, 0.000000000000000000, 0.000000000000000000 ) ) ;
#335 = CYLINDRICAL_SURFACE ( 'NONE', #210, 3.000000000000000000 ) ;
ENDSEC;
END-ISO-10303-21;
